  0
SECTION
  2
HEADER
  9
$ACADVER
  1
AC1015
  9
$ACADMAINTVER
 70
     6
  9
$DWGCODEPAGE
  3
ANSI_1254
  9
$INSBASE
 10
0.0
 20
0.0
 30
0.0
  9
$EXTMIN
 10
0.0
 20
0.0
 30
0.0
  9
$EXTMAX
 10
279.4
 20
215.9
 30
0.0
  9
$LIMMIN
 10
0.0
 20
0.0
  9
$LIMMAX
 10
279.4
 20
215.9
  9
$ORTHOMODE
 70
     0
  9
$REGENMODE
 70
     1
  9
$FILLMODE
 70
     1
  9
$QTEXTMODE
 70
     0
  9
$MIRRTEXT
 70
     1
  9
$LTSCALE
 40
1.0
  9
$ATTMODE
 70
     1
  9
$TEXTSIZE
 40
3.5
  9
$TRACEWID
 40
1.0
  9
$TEXTSTYLE
  7
Standard
  9
$CLAYER
  8
0
  9
$CELTYPE
  6
ByLayer
  9
$CECOLOR
 62
   256
  9
$CELTSCALE
 40
1.0
  9
$DISPSILH
 70
     0
  9
$DIMSCALE
 40
1.0
  9
$DIMASZ
 40
3.5
  9
$DIMEXO
 40
1.0
  9
$DIMDLI
 40
3.75
  9
$DIMRND
 40
0.0
  9
$DIMDLE
 40
0.0
  9
$DIMEXE
 40
1.0
  9
$DIMTP
 40
0.0
  9
$DIMTM
 40
0.0
  9
$DIMTXT
 40
3.5
  9
$DIMCEN
 40
2.5
  9
$DIMTSZ
 40
0.0
  9
$DIMTOL
 70
     0
  9
$DIMLIM
 70
     0
  9
$DIMTIH
 70
     1
  9
$DIMTOH
 70
     1
  9
$DIMSE1
 70
     0
  9
$DIMSE2
 70
     0
  9
$DIMTAD
 70
     1
  9
$DIMZIN
 70
     0
  9
$DIMBLK
  1

  9
$DIMASO
 70
     1
  9
$DIMSHO
 70
     1
  9
$DIMPOST
  1

  9
$DIMAPOST
  1

  9
$DIMALT
 70
     0
  9
$DIMALTD
 70
     3
  9
$DIMALTF
 40
0.0393700787
  9
$DIMLFAC
 40
1.0
  9
$DIMTOFL
 70
     1
  9
$DIMTVP
 40
0.0
  9
$DIMTIX
 70
     0
  9
$DIMSOXD
 70
     0
  9
$DIMSAH
 70
     0
  9
$DIMBLK1
  1

  9
$DIMBLK2
  1

  9
$DIMSTYLE
  2
ISO-25
  9
$DIMCLRD
 70
     0
  9
$DIMCLRE
 70
     0
  9
$DIMCLRT
 70
     0
  9
$DIMTFAC
 40
1.0
  9
$DIMGAP
 40
1.524
  9
$DIMJUST
 70
     0
  9
$DIMSD1
 70
     0
  9
$DIMSD2
 70
     0
  9
$DIMTOLJ
 70
     0
  9
$DIMTZIN
 70
     0
  9
$DIMALTZ
 70
     0
  9
$DIMALTTZ
 70
     0
  9
$DIMUPT
 70
     0
  9
$DIMDEC
 70
     2
  9
$DIMTDEC
 70
     2
  9
$DIMALTU
 70
     2
  9
$DIMALTTD
 70
     3
  9
$DIMTXSTY
  7
Standard
  9
$DIMAUNIT
 70
     0
  9
$DIMADEC
 70
     2
  9
$DIMALTRND
 40
0.0
  9
$DIMAZIN
 70
     0
  9
$DIMDSEP
 70
    44
  9
$DIMATFIT
 70
     3
  9
$DIMFRAC
 70
     0
  9
$DIMLDRBLK
  1

  9
$DIMLUNIT
 70
     2
  9
$DIMLWD
 70
    -2
  9
$DIMLWE
 70
    -2
  9
$DIMTMOVE
 70
     0
  9
$LUNITS
 70
     2
  9
$LUPREC
 70
     2
  9
$SKETCHINC
 40
1.0
  9
$FILLETRAD
 40
10.0
  9
$AUNITS
 70
     0
  9
$AUPREC
 70
     2
  9
$MENU
  1
.
  9
$ELEVATION
 40
0.0
  9
$PELEVATION
 40
0.0
  9
$THICKNESS
 40
0.0
  9
$LIMCHECK
 70
     0
  9
$CHAMFERA
 40
0.0
  9
$CHAMFERB
 40
0.0
  9
$CHAMFERC
 40
0.0
  9
$CHAMFERD
 40
0.0
  9
$SKPOLY
 70
     0
  9
$TDCREATE
 40
2458985.668802963
  9
$TDUCREATE
 40
2458985.543802963
  9
$TDUPDATE
 40
2458985.668803229
  9
$TDUUPDATE
 40
2458985.543803229
  9
$TDINDWG
 40
0.0000000116
  9
$TDUSRTIMER
 40
0.0000000116
  9
$USRTIMER
 70
     1
  9
$ANGBASE
 50
0.0
  9
$ANGDIR
 70
     0
  9
$PDMODE
 70
     0
  9
$PDSIZE
 40
-1.0
  9
$PLINEWID
 40
0.0
  9
$SPLFRAME
 70
     0
  9
$SPLINETYPE
 70
     6
  9
$SPLINESEGS
 70
     8
  9
$HANDSEED
  5
D2
  9
$SURFTAB1
 70
     6
  9
$SURFTAB2
 70
     6
  9
$SURFTYPE
 70
     6
  9
$SURFU
 70
     6
  9
$SURFV
 70
     6
  9
$UCSBASE
  2

  9
$UCSNAME
  2

  9
$UCSORG
 10
0.0
 20
0.0
 30
0.0
  9
$UCSXDIR
 10
1.0
 20
0.0
 30
0.0
  9
$UCSYDIR
 10
0.0
 20
1.0
 30
0.0
  9
$UCSORTHOREF
  2

  9
$UCSORTHOVIEW
 70
     0
  9
$UCSORGTOP
 10
0.0
 20
0.0
 30
0.0
  9
$UCSORGBOTTOM
 10
0.0
 20
0.0
 30
0.0
  9
$UCSORGLEFT
 10
0.0
 20
0.0
 30
0.0
  9
$UCSORGRIGHT
 10
0.0
 20
0.0
 30
0.0
  9
$UCSORGFRONT
 10
0.0
 20
0.0
 30
0.0
  9
$UCSORGBACK
 10
0.0
 20
0.0
 30
0.0
  9
$PUCSBASE
  2

  9
$PUCSNAME
  2

  9
$PUCSORG
 10
0.0
 20
0.0
 30
0.0
  9
$PUCSXDIR
 10
1.0
 20
0.0
 30
0.0
  9
$PUCSYDIR
 10
0.0
 20
1.0
 30
0.0
  9
$PUCSORTHOREF
  2

  9
$PUCSORTHOVIEW
 70
     0
  9
$PUCSORGTOP
 10
0.0
 20
0.0
 30
0.0
  9
$PUCSORGBOTTOM
 10
0.0
 20
0.0
 30
0.0
  9
$PUCSORGLEFT
 10
0.0
 20
0.0
 30
0.0
  9
$PUCSORGRIGHT
 10
0.0
 20
0.0
 30
0.0
  9
$PUCSORGFRONT
 10
0.0
 20
0.0
 30
0.0
  9
$PUCSORGBACK
 10
0.0
 20
0.0
 30
0.0
  9
$USERI1
 70
     0
  9
$USERI2
 70
     0
  9
$USERI3
 70
     0
  9
$USERI4
 70
     0
  9
$USERI5
 70
     0
  9
$USERR1
 40
0.0
  9
$USERR2
 40
0.0
  9
$USERR3
 40
0.0
  9
$USERR4
 40
0.0
  9
$USERR5
 40
0.0
  9
$WORLDVIEW
 70
     1
  9
$SHADEDGE
 70
     3
  9
$SHADEDIF
 70
    70
  9
$TILEMODE
 70
     1
  9
$MAXACTVP
 70
    64
  9
$PINSBASE
 10
0.0
 20
0.0
 30
0.0
  9
$PLIMCHECK
 70
     0
  9
$PEXTMIN
 10
1.0000000000E+20
 20
1.0000000000E+20
 30
1.0000000000E+20
  9
$PEXTMAX
 10
-1.0000000000E+20
 20
-1.0000000000E+20
 30
-1.0000000000E+20
  9
$PLIMMIN
 10
0.0
 20
0.0
  9
$PLIMMAX
 10
420.0
 20
297.0
  9
$UNITMODE
 70
     0
  9
$VISRETAIN
 70
     1
  9
$PLINEGEN
 70
     0
  9
$PSLTSCALE
 70
     1
  9
$TREEDEPTH
 70
  3020
  9
$CMLSTYLE
  2
Standard
  9
$CMLJUST
 70
     0
  9
$CMLSCALE
 40
20.0
  9
$PROXYGRAPHICS
 70
     1
  9
$MEASUREMENT
 70
     1
  9
$CELWEIGHT
370
    -1
  9
$ENDCAPS
280
     0
  9
$JOINSTYLE
280
     0
  9
$LWDISPLAY
290
     1
  9
$INSUNITS
 70
     4
  9
$HYPERLINKBASE
  1

  9
$STYLESHEET
  1

  9
$XEDIT
290
     1
  9
$CEPSNTYPE
380
     0
  9
$PSTYLEMODE
290
     1
  9
$FINGERPRINTGUID
  2
{c01736bf-75ad-427a-8d2a-40bd046fe20b}
  9
$VERSIONGUID
  2
{FAEB1C32-E019-11D5-929B-00C0DF256EC4}
  9
$EXTNAMES
290
     1
  9
$PSVPSCALE
 40
0.0
  9
$OLESTARTUP
290
     0
  0
ENDSEC
  0
SECTION
  2
CLASSES
  0
CLASS
  1
ACDBDICTIONARYWDFLT
  2
AcDbDictionaryWithDefault
  3
ObjectDBX Classes
 90
        0
280
     0
281
     0
  0
CLASS
  1
VISUALSTYLE
  2
AcDbVisualStyle
  3
ObjectDBX Classes
 90
     4095
280
     0
281
     0
  0
CLASS
  1
MATERIAL
  2
AcDbMaterial
  3
ObjectDBX Classes
 90
     1153
280
     0
281
     0
  0
CLASS
  1
SCALE
  2
AcDbScale
  3
ObjectDBX Classes
 90
     1153
280
     0
281
     0
  0
CLASS
  1
TABLESTYLE
  2
AcDbTableStyle
  3
ObjectDBX Classes
 90
     4095
280
     0
281
     0
  0
CLASS
  1
MLEADERSTYLE
  2
AcDbMLeaderStyle
  3
ACDB_MLEADERSTYLE_CLASS
 90
     4095
280
     0
281
     0
  0
CLASS
  1
SUN
  2
AcDbSun
  3
SCENEOE
 90
     1153
280
     0
281
     0
  0
CLASS
  1
ACDBPLACEHOLDER
  2
AcDbPlaceHolder
  3
ObjectDBX Classes
 90
        0
280
     0
281
     0
  0
CLASS
  1
LAYOUT
  2
AcDbLayout
  3
ObjectDBX Classes
 90
        0
280
     0
281
     0
  0
ENDSEC
  0
SECTION
  2
TABLES
  0
TABLE
  2
VPORT
  5
8
330
0
100
AcDbSymbolTable
 70
     1
  0
VPORT
  5
29
330
8
100
AcDbSymbolTableRecord
100
AcDbViewportTableRecord
  2
*Active
 70
     0
 10
0.0
 20
0.0
 11
1.0
 21
1.0
 12
139.7
 22
107.95
 13
0.0
 23
0.0
 14
10.0
 24
10.0
 15
10.0
 25
10.0
 16
0.0
 26
0.0
 36
1.0
 17
0.0
 27
0.0
 37
0.0
 40
215.9
 41
1.2941176471
 42
50.0
 43
0.0
 44
0.0
 50
0.0
 51
0.0
 71
     0
 72
  2000
 73
     1
 74
     3
 75
     0
 76
     0
 77
     0
 78
     0
281
     0
 65
     1
110
0.0
120
0.0
130
0.0
111
1.0
121
0.0
131
0.0
112
0.0
122
1.0
132
0.0
 79
     0
146
0.0
  0
ENDTAB
  0
TABLE
  2
LTYPE
  5
5
330
0
100
AcDbSymbolTable
 70
     6
  0
LTYPE
  5
14
330
5
100
AcDbSymbolTableRecord
100
AcDbLinetypeTableRecord
  2
ByBlock
 70
     0
  3

 72
    65
 73
     0
 40
0.0
  0
LTYPE
  5
15
330
5
100
AcDbSymbolTableRecord
100
AcDbLinetypeTableRecord
  2
ByLayer
 70
     0
  3

 72
    65
 73
     0
 40
0.0
  0
LTYPE
  5
16
330
5
100
AcDbSymbolTableRecord
100
AcDbLinetypeTableRecord
  2
Continuous
 70
     0
  3
Solid line
 72
    65
 73
     0
 40
0.0
  0
LTYPE
  5
6E
330
5
100
AcDbSymbolTableRecord
100
AcDbLinetypeTableRecord
  2
HIDDEN
 70
     0
  3
Hidden __ __ __ __ __ __ __ __ __ __ __ __ __ __
 72
    65
 73
     2
 40
1.905
 49
1.27
 74
     0
 49
-0.635
 74
     0
  0
LTYPE
  5
6F
330
5
100
AcDbSymbolTableRecord
100
AcDbLinetypeTableRecord
  2
PHANTOM
 70
     0
  3
Phantom ______  __  __  ______  __  __  ______
 72
    65
 73
     6
 40
12.7
 49
6.35
 74
     0
 49
-1.27
 74
     0
 49
1.27
 74
     0
 49
-1.27
 74
     0
 49
1.27
 74
     0
 49
-1.27
 74
     0
  0
LTYPE
  5
70
330
5
100
AcDbSymbolTableRecord
100
AcDbLinetypeTableRecord
  2
CENTER
 70
     0
  3
Center ____ _ ____ _ ____ _ ____ _ ____ _ ____
 72
    65
 73
     4
 40
10.16
 49
6.35
 74
     0
 49
-1.27
 74
     0
 49
1.27
 74
     0
 49
-1.27
 74
     0
  0
LTYPE
  5
71
330
5
100
AcDbSymbolTableRecord
100
AcDbLinetypeTableRecord
  2
CENTERX2
 70
     0
  3
Center (2x) ________  __  ________  __  _____
 72
    65
 73
     4
 40
20.32
 49
12.7
 74
     0
 49
-2.54
 74
     0
 49
2.54
 74
     0
 49
-2.54
 74
     0
  0
LTYPE
  5
72
330
5
100
AcDbSymbolTableRecord
100
AcDbLinetypeTableRecord
  2
DOT2
 70
     0
  3
Dot (.5x) ........................................
 72
    65
 73
     2
 40
0.635
 49
0.0
 74
     0
 49
-0.635
 74
     0
  0
ENDTAB
  0
TABLE
  2
LAYER
  5
2
330
0
100
AcDbSymbolTable
 70
    17
  0
LAYER
  5
10
330
2
100
AcDbSymbolTableRecord
100
AcDbLayerTableRecord
  2
0
 70
     0
 62
     7
  6
Continuous
370
    -3
390
F
  0
LAYER
  5
73
330
2
100
AcDbSymbolTableRecord
100
AcDbLayerTableRecord
  2
FORMAT
 70
     0
 62
     7
  6
Continuous
370
    -3
390
F
  0
LAYER
  5
74
330
2
100
AcDbSymbolTableRecord
100
AcDbLayerTableRecord
  2
YARDIMCI_GEOMETRI
 70
     0
 62
    -6
  6
Continuous
290
     0
370
    -3
390
F
  0
LAYER
  5
75
330
2
100
AcDbSymbolTableRecord
100
AcDbLayerTableRecord
  2
SAYFA_CERCEVESI
 70
     0
 62
     7
  6
Continuous
370
    25
390
F
  0
LAYER
  5
76
330
2
100
AcDbSymbolTableRecord
100
AcDbLayerTableRecord
  2
ANTET
 70
     0
 62
     7
  6
Continuous
370
    -3
390
F
  0
LAYER
  5
77
330
2
100
AcDbSymbolTableRecord
100
AcDbLayerTableRecord
  2
OLCU
 70
     0
 62
   150
  6
Continuous
370
    -3
390
F
  0
LAYER
  5
78
330
2
100
AcDbSymbolTableRecord
100
AcDbLayerTableRecord
  2
METIN
 70
     0
 62
    96
  6
Continuous
370
    -3
390
F
  0
LAYER
  5
79
330
2
100
AcDbSymbolTableRecord
100
AcDbLayerTableRecord
  2
BALON
 70
     0
 62
     5
  6
Continuous
370
    -3
390
F
  0
LAYER
  5
7A
330
2
100
AcDbSymbolTableRecord
100
AcDbLayerTableRecord
  2
VURGU
 70
     0
 62
     7
  6
Continuous
370
    -3
390
F
  0
LAYER
  5
7B
330
2
100
AcDbSymbolTableRecord
100
AcDbLayerTableRecord
  2
SILIK
 70
     0
 62
     7
  6
Continuous
370
    -3
390
F
  0
LAYER
  5
7C
330
2
100
AcDbSymbolTableRecord
100
AcDbLayerTableRecord
  2
MODEL
 70
     0
 62
     7
  6
Continuous
370
    -3
390
F
  0
LAYER
  5
7D
330
2
100
AcDbSymbolTableRecord
100
AcDbLayerTableRecord
  2
DETAYLANDıRMA
 70
     0
 62
   190
  6
Continuous
370
    -3
390
F
  0
LAYER
  5
7E
330
2
100
AcDbSymbolTableRecord
100
AcDbLayerTableRecord
  2
TOLERANS
 70
     0
 62
   230
  6
Continuous
370
    -3
390
F
  0
LAYER
  5
7F
330
2
100
AcDbSymbolTableRecord
100
AcDbLayerTableRecord
  2
MERKEZ_CIZGILERI
 70
     0
 62
    30
  6
Continuous
370
    -3
390
F
  0
LAYER
  5
80
330
2
100
AcDbSymbolTableRecord
100
AcDbLayerTableRecord
  2
KESIT-DETAY_CIZGILERI
 70
     0
 62
     7
  6
Continuous
370
    -3
390
F
  0
LAYER
  5
81
330
2
100
AcDbSymbolTableRecord
100
AcDbLayerTableRecord
  2
\U+041E\U+0421\U+0415\U+0412\U+042B\U+0415
 70
     0
 62
     7
  6
Continuous
370
    -3
390
F
  0
LAYER
  5
82
330
2
100
AcDbSymbolTableRecord
100
AcDbLayerTableRecord
  2
\U+0412\U+041E\U+0414\U+042F\U+041D\U+042B\U+0415_\U+0417\U+041D\U+0410\U+041A\U+0418
 70
     0
 62
    11
  6
Continuous
370
    -3
390
F
  0
ENDTAB
  0
TABLE
  2
STYLE
  5
3
330
0
100
AcDbSymbolTable
 70
     1
  0
STYLE
  5
11
330
3
100
AcDbSymbolTableRecord
100
AcDbTextStyleTableRecord
  2
Standard
 70
     0
 40
0.0
 41
1.0
 50
0.0
 71
     0
 42
3.5
  3
txt
  4

  0
ENDTAB
  0
TABLE
  2
VIEW
  5
6
330
0
100
AcDbSymbolTable
 70
     0
  0
ENDTAB
  0
TABLE
  2
UCS
  5
7
330
0
100
AcDbSymbolTable
 70
     0
  0
ENDTAB
  0
TABLE
  2
APPID
  5
9
330
0
100
AcDbSymbolTable
 70
     1
  0
APPID
  5
12
330
9
100
AcDbSymbolTableRecord
100
AcDbRegAppTableRecord
  2
ACAD
 70
     0
  0
ENDTAB
  0
TABLE
  2
DIMSTYLE
  5
A
330
0
100
AcDbSymbolTable
 70
     1
100
AcDbDimStyleTable
  0
DIMSTYLE
105
27
330
A
100
AcDbSymbolTableRecord
100
AcDbDimStyleTableRecord
  2
ISO-25
 70
     0
 41
2.5
 42
0.625
 43
3.75
 44
1.25
 73
     0
 74
     0
 77
     1
 78
     8
140
2.5
141
2.5
143
0.0393700787
147
0.625
171
     3
172
     1
178
     0
271
     2
272
     2
274
     3
278
    44
283
     0
284
     8
340
11
  0
ENDTAB
  0
TABLE
  2
BLOCK_RECORD
  5
1
330
0
100
AcDbSymbolTable
 70
     3
  0
BLOCK_RECORD
  5
1F
330
1
100
AcDbSymbolTableRecord
100
AcDbBlockTableRecord
  2
*Model_Space
340
22
  0
BLOCK_RECORD
  5
1B
330
1
100
AcDbSymbolTableRecord
100
AcDbBlockTableRecord
  2
*Paper_Space
340
1E
  0
BLOCK_RECORD
  5
23
330
1
100
AcDbSymbolTableRecord
100
AcDbBlockTableRecord
  2
*Paper_Space0
340
26
  0
BLOCK_RECORD
  5
94
330
1
100
AcDbSymbolTableRecord
100
AcDbBlockTableRecord
  2
SW_CENTERMARKSYMBOL_0
340
0
102
{BLKREFS
331
9F
102
}
  0
BLOCK_RECORD
  5
A5
330
1
100
AcDbSymbolTableRecord
100
AcDbBlockTableRecord
  2
SW_CENTERMARKSYMBOL_1
340
0
102
{BLKREFS
331
B0
102
}
  0
ENDTAB
  0
ENDSEC
  0
SECTION
  2
BLOCKS
  0
BLOCK
  5
20
330
1F
100
AcDbEntity
  8
0
100
AcDbBlockBegin
  2
*Model_Space
 70
     0
 10
0.0
 20
0.0
 30
0.0
  3
*Model_Space
  1

  0
ENDBLK
  5
21
330
1F
100
AcDbEntity
  8
0
100
AcDbBlockEnd
  0
BLOCK
  5
1C
330
1B
100
AcDbEntity
 67
     1
  8
0
100
AcDbBlockBegin
  2
*Paper_Space
 70
     0
 10
0.0
 20
0.0
 30
0.0
  3
*Paper_Space
  1

  0
ENDBLK
  5
1D
330
1B
100
AcDbEntity
 67
     1
  8
0
100
AcDbBlockEnd
  0
BLOCK
  5
24
330
23
100
AcDbEntity
  8
0
100
AcDbBlockBegin
  2
*Paper_Space0
 70
     0
 10
0.0
 20
0.0
 30
0.0
  3
*Paper_Space0
  1

  0
ENDBLK
  5
25
330
23
100
AcDbEntity
  8
0
100
AcDbBlockEnd
  0
BLOCK
  5
95
330
94
100
AcDbEntity
  8
0
100
AcDbBlockBegin
  2
SW_CENTERMARKSYMBOL_0
 70
     0
 10
0.0
 20
0.0
 30
0.0
  3
SW_CENTERMARKSYMBOL_0
  1

  0
LINE
  5
97
330
94
100
AcDbEntity
  8
FORMAT
 62
     0
100
AcDbLine
 10
0.0
 20
0.0
 30
0.0
 11
0.0
 21
2.5
 31
0.0
  0
LINE
  5
98
330
94
100
AcDbEntity
  8
FORMAT
 62
     0
100
AcDbLine
 10
0.0
 20
0.0
 30
0.0
 11
-2.5
 21
0.0
 31
0.0
  0
LINE
  5
99
330
94
100
AcDbEntity
  8
FORMAT
 62
     0
100
AcDbLine
 10
0.0
 20
0.0
 30
0.0
 11
0.0
 21
-2.5
 31
0.0
  0
LINE
  5
9A
330
94
100
AcDbEntity
  8
FORMAT
 62
     0
100
AcDbLine
 10
0.0
 20
0.0
 30
0.0
 11
2.5
 21
0.0
 31
0.0
  0
LINE
  5
9B
330
94
100
AcDbEntity
  8
FORMAT
 62
     0
100
AcDbLine
 10
0.0
 20
5.0
 30
0.0
 11
0.0
 21
57.5
 31
0.0
  0
LINE
  5
9C
330
94
100
AcDbEntity
  8
FORMAT
 62
     0
100
AcDbLine
 10
-5.0
 20
0.0
 30
0.0
 11
-57.5
 21
0.0
 31
0.0
  0
LINE
  5
9D
330
94
100
AcDbEntity
  8
FORMAT
 62
     0
100
AcDbLine
 10
0.0
 20
-5.0
 30
0.0
 11
0.0
 21
-57.5
 31
0.0
  0
LINE
  5
9E
330
94
100
AcDbEntity
  8
FORMAT
 62
     0
100
AcDbLine
 10
5.0
 20
0.0
 30
0.0
 11
57.5
 21
0.0
 31
0.0
  0
ENDBLK
  5
96
330
94
100
AcDbEntity
  8
0
100
AcDbBlockEnd
  0
BLOCK
  5
A6
330
A5
100
AcDbEntity
  8
0
100
AcDbBlockBegin
  2
SW_CENTERMARKSYMBOL_1
 70
     0
 10
0.0
 20
0.0
 30
0.0
  3
SW_CENTERMARKSYMBOL_1
  1

  0
LINE
  5
A8
330
A5
100
AcDbEntity
  8
FORMAT
 62
     0
100
AcDbLine
 10
0.0
 20
0.0
 30
0.0
 11
0.0
 21
2.5
 31
0.0
  0
LINE
  5
A9
330
A5
100
AcDbEntity
  8
FORMAT
 62
     0
100
AcDbLine
 10
0.0
 20
0.0
 30
0.0
 11
-2.5
 21
0.0
 31
0.0
  0
LINE
  5
AA
330
A5
100
AcDbEntity
  8
FORMAT
 62
     0
100
AcDbLine
 10
0.0
 20
0.0
 30
0.0
 11
0.0
 21
-2.5
 31
0.0
  0
LINE
  5
AB
330
A5
100
AcDbEntity
  8
FORMAT
 62
     0
100
AcDbLine
 10
0.0
 20
0.0
 30
0.0
 11
2.5
 21
0.0
 31
0.0
  0
LINE
  5
AC
330
A5
100
AcDbEntity
  8
FORMAT
 62
     0
100
AcDbLine
 10
0.0
 20
5.0
 30
0.0
 11
0.0
 21
57.5
 31
0.0
  0
LINE
  5
AD
330
A5
100
AcDbEntity
  8
FORMAT
 62
     0
100
AcDbLine
 10
-5.0
 20
0.0
 30
0.0
 11
-57.5
 21
0.0
 31
0.0
  0
LINE
  5
AE
330
A5
100
AcDbEntity
  8
FORMAT
 62
     0
100
AcDbLine
 10
0.0
 20
-5.0
 30
0.0
 11
0.0
 21
-57.5
 31
0.0
  0
LINE
  5
AF
330
A5
100
AcDbEntity
  8
FORMAT
 62
     0
100
AcDbLine
 10
5.0
 20
0.0
 30
0.0
 11
57.5
 21
0.0
 31
0.0
  0
ENDBLK
  5
A7
330
A5
100
AcDbEntity
  8
0
100
AcDbBlockEnd
  0
ENDSEC
  0
SECTION
  2
ENTITIES
  0
LINE
  5
83
330
1F
100
AcDbEntity
  8
0
  6
Continuous
 62
     7
370
    25
100
AcDbLine
 10
89.3349350363
 20
213.310225373
 30
0.0
 11
89.3349350363
 21
35.8264282996
 31
0.0
  0
LINE
  5
84
330
1F
100
AcDbEntity
  8
0
  6
Continuous
 62
     7
370
    25
100
AcDbLine
 10
199.3349344402
 20
35.8264282996
 30
0.0
 11
199.3349344402
 21
213.310225373
 31
0.0
  0
LINE
  5
85
330
1F
100
AcDbEntity
  8
0
  6
Continuous
 62
     7
370
    25
100
AcDbLine
 10
199.3349344402
 20
213.310225373
 30
0.0
 11
199.3349344402
 21
286.826415425
 31
0.0
  0
LINE
  5
86
330
1F
100
AcDbEntity
  8
0
  6
Continuous
 62
     7
370
    25
100
AcDbLine
 10
199.3349344402
 20
-89.1735717004
 30
0.0
 11
199.3349344402
 21
35.8264282996
 31
0.0
  0
LINE
  5
87
330
1F
100
AcDbEntity
  8
0
  6
Continuous
 62
     7
370
    25
100
AcDbLine
 10
89.3349350363
 20
35.8264282996
 30
0.0
 11
89.3349350363
 21
-89.1735717004
 31
0.0
  0
LINE
  5
88
330
1F
100
AcDbEntity
  8
0
  6
Continuous
 62
     7
370
    25
100
AcDbLine
 10
89.3349350363
 20
286.826415425
 30
0.0
 11
89.3349350363
 21
213.310225373
 31
0.0
  0
LWPOLYLINE
  5
89
330
1F
100
AcDbEntity
  8
0
  6
Continuous
 62
     7
370
    25
100
AcDbPolyline
 90
       77
 70
   128
 43
0.0
 10
144.3349347382
 20
247.5341991241
 10
140.3380945257
 20
247.4173144157
 10
136.3685569658
 20
247.0674351508
 10
132.4534370496
 20
246.4869455154
 10
128.6194809645
 20
245.6798390205
 10
124.8928756386
 20
244.6516290958
 10
121.2990806371
 20
243.409319287
 10
117.8626437604
 20
241.9614032562
 10
114.6070399254
 20
240.3177455718
 10
111.5545072525
 20
238.4896115119
 10
108.7258980542
 20
236.4894882495
 10
106.1405354112
 20
234.3310252483
 10
103.8160771995
 20
232.0289746577
 10
101.7684043318
 20
229.5990423019
 10
100.0115052729
 20
227.0578280742
 10
98.5573791831
 20
224.422736531
 10
97.4159614116
 20
221.7117086704
 10
96.5950489908
 20
218.9433113391
 10
96.1002447575
 20
216.1364094073
 10
95.9349350005
 20
213.310225373
 10
96.1002447575
 20
210.4840413387
 10
96.5950489908
 20
207.6771394069
 10
97.4159614116
 20
204.9087420757
 10
98.5573791831
 20
202.197714215
 10
100.0115052729
 20
199.5626226718
 10
101.7684043318
 20
197.0214084441
 10
103.8160771995
 20
194.5915058906
 10
106.1405354112
 20
192.2894254977
 10
108.7258980542
 20
190.1309624965
 10
111.5545072525
 20
188.1308392341
 10
114.6070399254
 20
186.3027051742
 10
117.8626437604
 20
184.6590772922
 10
121.2990806371
 20
183.2111612613
 10
124.8928756386
 20
181.9688216502
 10
128.6194809645
 20
180.9406117255
 10
132.4534370496
 20
180.1335052306
 10
136.3685569658
 20
179.5530453975
 10
140.3380945257
 20
179.2031661327
 10
144.3349347382
 20
179.0862516219
 10
148.3317749507
 20
179.2031661327
 10
152.3013125106
 20
179.5530453975
 10
156.2164324268
 20
180.1335052306
 10
160.050388512
 20
180.9406117255
 10
163.7769938379
 20
181.9688216502
 10
167.3707888394
 20
183.2111612613
 10
170.8072257161
 20
184.6590772922
 10
174.0628295511
 20
186.3027051742
 10
177.1153622239
 20
188.1308392341
 10
179.9439714223
 20
190.1309624965
 10
182.5293340653
 20
192.2894254977
 10
184.8537922769
 20
194.5915058906
 10
186.9014651447
 20
197.0214084441
 10
188.6583642035
 20
199.5626226718
 10
190.1124902933
 20
202.197714215
 10
191.2539080649
 20
204.9087420757
 10
192.0748204857
 20
207.6771394069
 10
192.569624719
 20
210.4840413387
 10
192.734934476
 20
213.310225373
 10
192.569624719
 20
216.1364094073
 10
192.0748204857
 20
218.9433113391
 10
191.2539080649
 20
221.7117086704
 10
190.1124902933
 20
224.422736531
 10
188.6583642035
 20
227.0578280742
 10
186.9014651447
 20
229.5990423019
 10
184.8537922769
 20
232.0289746577
 10
182.5293340653
 20
234.3310252483
 10
179.9439714223
 20
236.4894882495
 10
177.1153622239
 20
238.4896115119
 10
174.0628295511
 20
240.3177455718
 10
170.8072257161
 20
241.9614032562
 10
167.3707888394
 20
243.409319287
 10
163.7769938379
 20
244.6516290958
 10
160.050388512
 20
245.6798390205
 10
156.2164324268
 20
246.4869455154
 10
152.3013125106
 20
247.0674351508
 10
148.3317749507
 20
247.4173144157
 10
144.3349347382
 20
247.5341991241
  0
LWPOLYLINE
  5
8A
330
1F
100
AcDbEntity
  8
0
  6
Continuous
 62
     7
370
    25
100
AcDbPolyline
 90
       82
 70
   128
 43
0.0
 10
144.3349347382
 20
252.2010937984
 10
140.0728515282
 20
252.0841494853
 10
135.8364011094
 20
251.7340318019
 10
131.6510616734
 20
251.1527971084
 10
127.5420040756
 20
250.3439918811
 10
123.5339418917
 20
249.3124440963
 10
119.650980544
 20
248.0643824393
 10
115.9164701521
 20
246.6073170955
 10
112.3528704911
 20
244.9499801452
 10
108.9816168814
 20
243.1023553664
 10
105.8229804903
 20
241.0755888278
 10
102.8959602981
 20
238.8818100745
 10
100.2181583017
 20
236.5342513377
 10
97.8056826561
 20
234.0470091159
 10
95.6730359166
 20
231.4350739772
 10
93.833047983
 20
228.7141219432
 10
92.2967866927
 20
225.9005144889
 10
91.0734870404
 20
223.0112091357
 10
90.1705064743
 20
220.0635508353
 10
89.5932801932
 20
217.0753017719
 10
89.3452764421
 20
214.064373141
 10
89.4279853373
 20
211.0489145572
 10
89.8409114152
 20
208.0470756347
 10
90.5815736323
 20
205.0768867786
 10
91.6455128163
 20
202.1561995799
 10
93.0263326436
 20
199.302597409
 10
94.7157257169
 20
196.5332464034
 10
96.7035368949
 20
193.8648060615
 10
98.9778079956
 20
191.3132802303
 10
101.5248634785
 20
188.8940767104
 10
104.3293849498
 20
186.6216794307
 10
107.3745005697
 20
184.5098272617
 10
110.6419042617
 20
182.571156388
 10
114.1119413942
 20
180.8173791225
 10
117.7637410283
 20
179.2590156848
 10
121.5753444403
 20
177.9054240043
 10
125.5238261938
 20
176.7647699172
 10
129.5854412883
 20
175.8439079578
 10
133.7357602015
 20
175.1483515556
 10
137.9498244196
 20
174.6823326404
 10
142.2022893957
 20
174.4485930259
 10
146.4675800807
 20
174.4485930259
 10
150.7200450569
 20
174.6823326404
 10
154.934109275
 20
175.1483515556
 10
159.0844281882
 20
175.8439079578
 10
163.1460432827
 20
176.7647699172
 10
167.0945250362
 20
177.9054240043
 10
170.9061284482
 20
179.2590156848
 10
174.5579280823
 20
180.8173791225
 10
178.0279652148
 20
182.571156388
 10
181.2953689068
 20
184.5098272617
 10
184.3404845267
 20
186.6216794307
 10
187.145005998
 20
188.8940767104
 10
189.6920614808
 20
191.3132802303
 10
191.9663325816
 20
193.8648060615
 10
193.9541437596
 20
196.5332464034
 10
195.6435368329
 20
199.302597409
 10
197.0243566602
 20
202.1561995799
 10
198.0882958442
 20
205.0768867786
 10
198.8289580613
 20
208.0470756347
 10
199.2418841391
 20
211.0489145572
 10
199.3245930343
 20
214.064373141
 10
199.0765892833
 20
217.0753017719
 10
198.4993630021
 20
220.0635508353
 10
197.5963824361
 20
223.0112091357
 10
196.3730827838
 20
225.9005144889
 10
194.8368214935
 20
228.7141219432
 10
192.9968335598
 20
231.4350739772
 10
190.8641868203
 20
234.0470091159
 10
188.4517111748
 20
236.5342513377
 10
185.7739091783
 20
238.8818100745
 10
182.8468889862
 20
241.0755888278
 10
179.688252595
 20
243.1023553664
 10
176.3169989854
 20
244.9499801452
 10
172.7533993244
 20
246.6073170955
 10
169.0188889324
 20
248.0643824393
 10
165.1359275847
 20
249.3124440963
 10
161.1278654009
 20
250.3439918811
 10
157.0188078031
 20
251.1527971084
 10
152.8334683671
 20
251.7340318019
 10
148.5970179483
 20
252.0841494853
 10
144.3349347382
 20
252.2010937984
  0
ELLIPSE
  5
8B
330
1F
100
AcDbEntity
  8
0
  6
Continuous
 62
     7
370
    25
100
AcDbEllipse
 10
144.3349347382
 20
35.8264282996
 30
0.0
 11
54.99999999999997
 21
0.0
 31
0.0
210
0.0
220
0.0
230
1.0
 40
0.4142135624
 41
3.141592653589793
 42
6.283185307179586
  0
LINE
  5
8C
330
1F
100
AcDbEntity
  8
0
  6
Continuous
 62
     7
370
    25
100
AcDbLine
 10
89.3349350363
 20
-89.1735717004
 30
0.0
 11
199.3349344402
 21
-89.1735717004
 31
0.0
  0
LINE
  5
8D
330
1F
100
AcDbEntity
  8
0
  6
Continuous
 62
     7
370
    25
100
AcDbLine
 10
89.3349350363
 20
286.826415425
 30
0.0
 11
199.3349344402
 21
286.826415425
 31
0.0
  0
LINE
  5
8E
330
1F
100
AcDbEntity
  8
0
  6
Continuous
 62
     7
370
    25
100
AcDbLine
 10
199.3349344402
 20
426.7711048213
 30
0.0
 11
199.3349344402
 21
604.2549018946
 31
0.0
  0
LINE
  5
8F
330
1F
100
AcDbEntity
  8
0
  6
Continuous
 62
     7
370
    25
100
AcDbLine
 10
89.3349350363
 20
604.2549018946
 30
0.0
 11
89.3349350363
 21
426.7711048213
 31
0.0
  0
CIRCLE
  5
90
330
1F
100
AcDbEntity
  8
0
  6
Continuous
 62
     7
370
    25
100
AcDbCircle
 10
144.3349347382
 20
604.2549018946
 30
0.0
 40
48.40000000000001
  0
CIRCLE
  5
91
330
1F
100
AcDbEntity
  8
0
  6
Continuous
 62
     7
370
    25
100
AcDbCircle
 10
144.3349347382
 20
604.2549018946
 30
0.0
 40
55.0
  0
LWPOLYLINE
  5
92
330
1F
100
AcDbEntity
  8
0
  6
Continuous
 62
     7
370
    25
100
AcDbPolyline
 90
       82
 70
   128
 43
0.0
 10
144.3349347382
 20
465.6619732466
 10
140.0728515282
 20
465.5450289336
 10
135.8364011094
 20
465.1948814479
 10
131.6510616734
 20
464.6136616555
 10
127.5420040756
 20
463.8048564282
 10
123.5339418917
 20
462.7733086434
 10
119.650980544
 20
461.5252469865
 10
115.9164701521
 20
460.0681816426
 10
112.3528704911
 20
458.4108446923
 10
108.9816168814
 20
456.5632348147
 10
105.8229804903
 20
454.5364533749
 10
102.8959602981
 20
452.3426746216
 10
100.2181583017
 20
449.9951158848
 10
97.8056826561
 20
447.5078885642
 10
95.6730359166
 20
444.8959385243
 10
93.833047983
 20
442.1749864903
 10
92.2967866927
 20
439.3613939372
 10
91.0734870404
 20
436.472088584
 10
90.1705064743
 20
433.5244302836
 10
89.5932801932
 20
430.536166319
 10
89.3452764421
 20
427.5252525893
 10
89.4279853373
 20
424.5097940055
 10
89.8409114152
 20
421.5079401818
 10
90.5815736323
 20
418.5377513257
 10
91.6455128163
 20
415.6170790282
 10
93.0263326436
 20
412.7634768573
 10
94.7157257169
 20
409.9941258517
 10
96.7035368949
 20
407.3256706086
 10
98.9778079956
 20
404.7741596785
 10
101.5248634785
 20
402.3549412575
 10
104.3293849498
 20
400.082558879
 10
107.3745005697
 20
397.9706918088
 10
110.6419042617
 20
396.0320358363
 10
114.1119413942
 20
394.2782436696
 10
117.7637410283
 20
392.7198802319
 10
121.5753444403
 20
391.3662885514
 10
125.5238261938
 20
390.2256344643
 10
129.5854412883
 20
389.3047725049
 10
133.7357602015
 20
388.6092310038
 10
137.9498244196
 20
388.1431971875
 10
142.2022893957
 20
387.9094724742
 10
146.4675800807
 20
387.9094724742
 10
150.7200450569
 20
388.1431971875
 10
154.934109275
 20
388.6092310038
 10
159.0844281882
 20
389.3047725049
 10
163.1460432827
 20
390.2256344643
 10
167.0945250362
 20
391.3662885514
 10
170.9061284482
 20
392.7198802319
 10
174.5579280823
 20
394.2782436696
 10
178.0279652148
 20
396.0320358363
 10
181.2953689068
 20
397.9706918088
 10
184.3404845267
 20
400.082558879
 10
187.145005998
 20
402.3549412575
 10
189.6920614808
 20
404.7741596785
 10
191.9663325816
 20
407.3256706086
 10
193.9541437596
 20
409.9941258517
 10
195.6435368329
 20
412.7634768573
 10
197.0243566602
 20
415.6170790282
 10
198.0882958442
 20
418.5377513257
 10
198.8289580613
 20
421.5079401818
 10
199.2418841391
 20
424.5097940055
 10
199.3245930343
 20
427.5252525893
 10
199.0765892833
 20
430.536166319
 10
198.4993630021
 20
433.5244302836
 10
197.5963824361
 20
436.472088584
 10
196.3730827838
 20
439.3613939372
 10
194.8368214935
 20
442.1749864903
 10
192.9968335598
 20
444.8959385243
 10
190.8641868203
 20
447.5078885642
 10
188.4517111748
 20
449.9951158848
 10
185.7739091783
 20
452.3426746216
 10
182.8468889862
 20
454.5364533749
 10
179.688252595
 20
456.5632348147
 10
176.3169989854
 20
458.4108446923
 10
172.7533993244
 20
460.0681816426
 10
169.0188889324
 20
461.5252469865
 10
165.1359275847
 20
462.7733086434
 10
161.1278654009
 20
463.8048564282
 10
157.0188078031
 20
464.6136616555
 10
152.8334683671
 20
465.1948814479
 10
148.5970179483
 20
465.5450289336
 10
144.3349347382
 20
465.6619732466
  0
LWPOLYLINE
  5
93
330
1F
100
AcDbEntity
  8
0
  6
Continuous
 62
     7
370
    25
100
AcDbPolyline
 90
       77
 70
   128
 43
0.0
 10
144.3349347382
 20
460.9950636712
 10
140.3380945257
 20
460.8781789628
 10
136.3685569658
 20
460.5282996979
 10
132.4534370496
 20
459.9478249636
 10
128.6194809645
 20
459.1407184687
 10
124.8928756386
 20
458.1124936429
 10
121.2990806371
 20
456.8701838341
 10
117.8626437604
 20
455.4222529021
 10
114.6070399254
 20
453.7786250201
 10
111.5545072525
 20
451.9504909602
 10
108.7258980542
 20
449.9503676978
 10
106.1405354112
 20
447.7918897954
 10
103.8160771995
 20
445.4898392049
 10
101.7684043318
 20
443.059906849
 10
100.0115052729
 20
440.5187075225
 10
98.5573791831
 20
437.8836010781
 10
97.4159614116
 20
435.1725881186
 10
96.5950489908
 20
432.4041758862
 10
96.1002447575
 20
429.5972888556
 10
95.9349350005
 20
426.7711048213
 10
96.1002447575
 20
423.9449058858
 10
96.5950489908
 20
421.1380188552
 10
97.4159614116
 20
418.3696066228
 10
98.5573791831
 20
415.6585936633
 10
100.0115052729
 20
413.0234872189
 10
101.7684043318
 20
410.4822878924
 10
103.8160771995
 20
408.0523704377
 10
106.1405354112
 20
405.750304946
 10
108.7258980542
 20
403.5918419448
 10
111.5545072525
 20
401.5917037812
 10
114.6070399254
 20
399.7635846224
 10
117.8626437604
 20
398.1199418393
 10
121.2990806371
 20
396.6720109072
 10
124.8928756386
 20
395.4297010985
 10
128.6194809645
 20
394.4014762726
 10
132.4534370496
 20
393.5943697777
 10
136.3685569658
 20
393.0138950434
 10
140.3380945257
 20
392.6640306798
 10
144.3349347382
 20
392.5471310702
 10
148.3317749507
 20
392.6640306798
 10
152.3013125106
 20
393.0138950434
 10
156.2164324268
 20
393.5943697777
 10
160.050388512
 20
394.4014762726
 10
163.7769938379
 20
395.4297010985
 10
167.3707888394
 20
396.6720109072
 10
170.8072257161
 20
398.1199418393
 10
174.0628295511
 20
399.7635846224
 10
177.1153622239
 20
401.5917037812
 10
179.9439714223
 20
403.5918419448
 10
182.5293340653
 20
405.750304946
 10
184.8537922769
 20
408.0523704377
 10
186.9014651447
 20
410.4822878924
 10
188.6583642035
 20
413.0234872189
 10
190.1124902933
 20
415.6585936633
 10
191.2539080649
 20
418.3696066228
 10
192.0748204857
 20
421.1380188552
 10
192.569624719
 20
423.9449058858
 10
192.734934476
 20
426.7711048213
 10
192.569624719
 20
429.5972888556
 10
192.0748204857
 20
432.4041758862
 10
191.2539080649
 20
435.1725881186
 10
190.1124902933
 20
437.8836010781
 10
188.6583642035
 20
440.5187075225
 10
186.9014651447
 20
443.059906849
 10
184.8537922769
 20
445.4898392049
 10
182.5293340653
 20
447.7918897954
 10
179.9439714223
 20
449.9503676978
 10
177.1153622239
 20
451.9504909602
 10
174.0628295511
 20
453.7786250201
 10
170.8072257161
 20
455.4222529021
 10
167.3707888394
 20
456.8701838341
 10
163.7769938379
 20
458.1124936429
 10
160.050388512
 20
459.1407184687
 10
156.2164324268
 20
459.9478249636
 10
152.3013125106
 20
460.5282996979
 10
148.3317749507
 20
460.8781789628
 10
144.3349347382
 20
460.9950636712
  0
INSERT
  5
9F
330
1F
100
AcDbEntity
  8
FORMAT
100
AcDbBlockReference
  2
SW_CENTERMARKSYMBOL_0
 10
144.3349347382
 20
604.2549018946
 30
0.0
  0
LINE
  5
A0
330
1F
100
AcDbEntity
  8
0
  6
Continuous
 62
     7
370
    25
100
AcDbLine
 10
89.3349350363
 20
-245.237726871
 30
0.0
 11
89.3349350363
 21
-422.7215239444
 31
0.0
  0
LINE
  5
A1
330
1F
100
AcDbEntity
  8
0
  6
Continuous
 62
     7
370
    25
100
AcDbLine
 10
199.3349344402
 20
-422.7215239444
 30
0.0
 11
199.3349344402
 21
-245.237726871
 31
0.0
  0
CIRCLE
  5
A2
330
1F
100
AcDbEntity
  8
0
  6
Continuous
 62
     7
370
    25
100
AcDbCircle
 10
144.3349347382
 20
-422.7215239444
 30
0.0
 40
48.40000000000001
  0
CIRCLE
  5
A3
330
1F
100
AcDbEntity
  8
0
  6
Continuous
 62
     7
370
    25
100
AcDbCircle
 10
144.3349347382
 20
-422.7215239444
 30
0.0
 40
55.0
  0
LWPOLYLINE
  5
A4
330
1F
100
AcDbEntity
  8
0
  6
Continuous
 62
     7
370
    25
100
AcDbPolyline
 90
       42
 70
   128
 43
0.0
 10
89.3349350363
 20
-245.237726871
 10
89.4279853373
 20
-242.9764160552
 10
89.8409114152
 20
-239.9745622315
 10
90.5815736323
 20
-237.0043733754
 10
91.6455128163
 20
-234.0837010779
 10
93.0263326436
 20
-231.230098907
 10
94.7157257169
 20
-228.4607479014
 10
96.7035368949
 20
-225.7922926583
 10
98.9778079956
 20
-223.2407817283
 10
101.5248634785
 20
-220.8215633073
 10
104.3293849498
 20
-218.5491809287
 10
107.3745005697
 20
-216.4373138585
 10
110.6419042617
 20
-214.498657886
 10
114.1119413942
 20
-212.7448657193
 10
117.7637410283
 20
-211.1865022817
 10
121.5753444403
 20
-209.8329106011
 10
125.5238261938
 20
-208.6922565141
 10
129.5854412883
 20
-207.7713945546
 10
133.7357602015
 20
-207.0758530536
 10
137.9498244196
 20
-206.6098192372
 10
142.2022893957
 20
-206.3760945239
 10
146.4675800807
 20
-206.3760945239
 10
150.7200450569
 20
-206.6098192372
 10
154.934109275
 20
-207.0758530536
 10
159.0844281882
 20
-207.7713945546
 10
163.1460432827
 20
-208.6922565141
 10
167.0945250362
 20
-209.8329106011
 10
170.9061284482
 20
-211.1865022817
 10
174.5579280823
 20
-212.7448657193
 10
178.0279652148
 20
-214.498657886
 10
181.2953689068
 20
-216.4373138585
 10
184.3404845267
 20
-218.5491809287
 10
187.145005998
 20
-220.8215633073
 10
189.6920614808
 20
-223.2407817283
 10
191.9663325816
 20
-225.7922926583
 10
193.9541437596
 20
-228.4607479014
 10
195.6435368329
 20
-231.230098907
 10
197.0243566602
 20
-234.0837010779
 10
198.0882958442
 20
-237.0043733754
 10
198.8289580613
 20
-239.9745622315
 10
199.2418841391
 20
-242.9764160552
 10
199.3349344402
 20
-245.237726871
  0
INSERT
  5
B0
330
1F
100
AcDbEntity
  8
FORMAT
100
AcDbBlockReference
  2
SW_CENTERMARKSYMBOL_1
 10
144.3349347382
 20
-422.7215239444
 30
0.0
  0
LINE
  5
B1
330
1F
100
AcDbEntity
  8
0
  6
Continuous
 62
     7
370
    25
100
AcDbLine
 10
502.9681965918
 20
168.6081723029
 30
0.0
 11
502.9681965918
 21
286.826415425
 31
0.0
  0
LINE
  5
B2
330
1F
100
AcDbEntity
  8
0
  6
Continuous
 62
     7
370
    25
100
AcDbLine
 10
502.9681965918
 20
-89.1735717004
 30
0.0
 11
502.9681965918
 21
13.0446837003
 31
0.0
  0
LINE
  5
B3
330
1F
100
AcDbEntity
  8
0
  6
Continuous
 62
     7
370
    25
100
AcDbLine
 10
392.9681971879
 20
286.826415425
 30
0.0
 11
392.9681971879
 21
-89.1735717004
 31
0.0
  0
LINE
  5
B4
330
1F
100
AcDbEntity
  8
0
  6
Continuous
 62
     7
370
    25
100
AcDbLine
 10
586.5611255379
 20
252.2010937984
 30
0.0
 11
502.9681965918
 21
168.6081723029
 31
0.0
  0
LINE
  5
B5
330
1F
100
AcDbEntity
  8
0
  6
Continuous
 62
     7
370
    25
100
AcDbLine
 10
502.9681965918
 20
13.0446837003
 30
0.0
 11
664.3428772898
 21
174.4193569476
 31
0.0
  0
LINE
  5
B6
330
1F
100
AcDbEntity
  8
0
  6
Continuous
 62
     7
370
    25
100
AcDbLine
 10
447.9681968899
 20
-89.1735717004
 30
0.0
 11
502.9681965918
 21
-89.1735717004
 31
0.0
  0
LINE
  5
B7
330
1F
100
AcDbEntity
  8
0
  6
Continuous
 62
     7
370
    25
100
AcDbLine
 10
392.9681971879
 20
-89.1735717004
 30
0.0
 11
447.9681968899
 21
-89.1735717004
 31
0.0
  0
LINE
  5
B8
330
1F
100
AcDbEntity
  8
0
  6
Continuous
 62
     7
370
    25
100
AcDbLine
 10
447.9681968899
 20
286.826415425
 30
0.0
 11
502.9681965918
 21
286.826415425
 31
0.0
  0
LINE
  5
B9
330
1F
100
AcDbEntity
  8
0
  6
Continuous
 62
     7
370
    25
100
AcDbLine
 10
392.9681971879
 20
286.826415425
 30
0.0
 11
447.9681968899
 21
286.826415425
 31
0.0
  0
LWPOLYLINE
  5
BA
330
1F
100
AcDbEntity
  8
0
  6
Continuous
 62
     7
370
    25
100
AcDbPolyline
 90
       34
 70
   128
 43
0.0
 10
447.9681968899
 20
35.8264282996
 10
450.5852021487
 20
42.1444312389
 10
453.1962790736
 20
48.4481290633
 10
455.7955133007
 20
54.7232464606
 10
458.3770156116
 20
60.9555379207
 10
460.9349386976
 20
67.130906945
 10
463.4634878696
 20
73.2353762443
 10
465.9569345624
 20
79.2550877387
 10
468.4096321673
 20
85.176421767
 10
470.8160225512
 20
90.9859523828
 10
473.1706556142
 20
96.6705516631
 10
475.4681967409
 20
102.2173003013
 10
477.7034417004
 20
107.6136664207
 10
479.8713259609
 20
112.8474012668
 10
481.9669395895
 20
117.9066584165
 10
483.9855365665
 20
122.7799788768
 10
485.9225422354
 20
127.4563208873
 10
487.7735682042
 20
131.9251046235
 10
489.5344235213
 20
136.1761823947
 10
491.2011184008
 20
140.1999280507
 10
492.7698753984
 20
143.9872518832
 10
494.2371405871
 20
147.5295410211
 10
495.5995947332
 20
150.8187935407
 10
496.8541458459
 20
153.8475439603
 10
497.9979552538
 20
156.6089526469
 10
499.0284338803
 20
159.0967462117
 10
499.943242243
 20
161.3052920158
 10
500.7403090806
 20
163.2295683677
 10
501.4178313525
 20
164.8652688319
 10
501.974274239
 20
166.2086383159
 10
502.4083748669
 20
167.2566369827
 10
502.7191534848
 20
168.0069402511
 10
502.9059022875
 20
168.4577897842
 10
502.9681965918
 20
168.6081723029
  0
LWPOLYLINE
  5
BB
330
1F
100
AcDbEntity
  8
0
  6
Continuous
 62
     7
370
    25
100
AcDbPolyline
 90
       22
 70
   128
 43
0.0
 10
502.9681965918
 20
13.0446837003
 10
502.8144054324
 20
13.1083861644
 10
502.3538924963
 20
13.2991359288
 10
501.5892319591
 20
13.6158675606
 10
500.524700454
 20
14.0568078215
 10
499.1662547202
 20
14.6194980199
 10
497.5214831741
 20
15.3007865603
 10
495.5995947332
 20
16.0968587453
 10
493.4113294096
 20
17.0032665784
 10
490.9689285071
 20
18.0149436648
 10
488.2860489399
 20
19.1262275631
 10
485.3776961775
 20
20.3309044893
 10
482.2601348371
 20
21.6222391183
 10
478.9507992775
 20
22.9930118377
 10
475.4681967409
 20
24.435556
 10
471.8318030448
 20
25.9418026263
 10
468.0619526864
 20
27.5033251102
 10
464.1797308088
 20
29.111391371
 10
460.2068484039
 20
30.7570160086
 10
456.1655212403
 20
32.4309826548
 10
452.0783520513
 20
34.1239482815
 10
447.9681968899
 20
35.8264282996
  0
LWPOLYLINE
  5
BC
330
1F
100
AcDbEntity
  8
0
  6
Continuous
 62
     7
370
    25
100
AcDbPolyline
 90
       42
 70
   128
 43
0.0
 10
586.5611255379
 20
252.2010937984
 10
586.6780698509
 20
252.0841494853
 10
587.0282173366
 20
251.7340318019
 10
587.609437129
 20
251.1527971084
 10
588.4182423563
 20
250.3439918811
 10
589.4497901411
 20
249.3124440963
 10
590.697851798
 20
248.0643824393
 10
592.1549171419
 20
246.6073170955
 10
593.8122540922
 20
244.9499801452
 10
595.6598639698
 20
243.1023553664
 10
597.6866454096
 20
241.0755888278
 10
599.8804241629
 20
238.8818100745
 10
602.2279828997
 20
236.5342513377
 10
604.7152102203
 20
234.0470091159
 10
607.3271602602
 20
231.4350739772
 10
610.0481122942
 20
228.7141219432
 10
612.8617048473
 20
225.9005144889
 10
615.7510102005
 20
223.0112091357
 10
618.6986685009
 20
220.0635508353
 10
621.6869324655
 20
217.0753017719
 10
624.6978461952
 20
214.064373141
 10
627.713304779
 20
211.0489145572
 10
630.7151586027
 20
208.0470756347
 10
633.6853474588
 20
205.0768867786
 10
636.6060197563
 20
202.1561995799
 10
639.4596219272
 20
199.302597409
 10
642.2289729328
 20
196.5332464034
 10
644.8974281759
 20
193.8648060615
 10
647.448939106
 20
191.3132802303
 10
649.868157527
 20
188.8940767104
 10
652.1405399055
 20
186.6216794307
 10
654.2524069757
 20
184.5098272617
 10
656.1910629482
 20
182.571156388
 10
657.9448551149
 20
180.8173791225
 10
659.5032185526
 20
179.2590156848
 10
660.8568102331
 20
177.9054240043
 10
661.9974643202
 20
176.7647699172
 10
662.9183262796
 20
175.8439079578
 10
663.6138677807
 20
175.1483515556
 10
664.079901597
 20
174.6823326404
 10
664.3136263103
 20
174.4485930259
 10
664.3428772898
 20
174.4193569476
  0
LINE
  5
BD
330
1F
100
AcDbEntity
  8
0
  6
Continuous
 62
     7
370
    25
100
AcDbLine
 10
-120.1825148359
 20
-89.1735717004
 30
0.0
 11
-120.1825148359
 21
286.826415425
 31
0.0
  0
LINE
  5
BE
330
1F
100
AcDbEntity
  8
0
  6
Continuous
 62
     7
370
    25
100
AcDbLine
 10
-230.1825142399
 20
13.0446837003
 30
0.0
 11
-230.1825142399
 21
-89.1735717004
 31
0.0
  0
LINE
  5
BF
330
1F
100
AcDbEntity
  8
0
  6
Continuous
 62
     7
370
    25
100
AcDbLine
 10
-230.1825142399
 20
286.826415425
 30
0.0
 11
-230.1825142399
 21
168.6081723029
 31
0.0
  0
LINE
  5
C0
330
1F
100
AcDbEntity
  8
0
  6
Continuous
 62
     7
370
    25
100
AcDbLine
 10
-391.5571949378
 20
174.4193569476
 30
0.0
 11
-230.1825142399
 21
13.0446837003
 31
0.0
  0
LINE
  5
C1
330
1F
100
AcDbEntity
  8
0
  6
Continuous
 62
     7
370
    25
100
AcDbLine
 10
-230.1825142399
 20
168.6081723029
 30
0.0
 11
-313.7754431859
 21
252.2010937984
 31
0.0
  0
LINE
  5
C2
330
1F
100
AcDbEntity
  8
0
  6
Continuous
 62
     7
370
    25
100
AcDbLine
 10
-230.1825142399
 20
-89.1735717004
 30
0.0
 11
-120.1825148359
 21
-89.1735717004
 31
0.0
  0
LINE
  5
C3
330
1F
100
AcDbEntity
  8
0
  6
Continuous
 62
     7
370
    25
100
AcDbLine
 10
-230.1825142399
 20
286.826415425
 30
0.0
 11
-120.1825148359
 21
286.826415425
 31
0.0
  0
LWPOLYLINE
  5
C4
330
1F
100
AcDbEntity
  8
0
  6
Continuous
 62
     7
370
    25
100
AcDbPolyline
 90
       34
 70
   128
 43
0.0
 10
-230.1825142399
 20
168.6081723029
 10
-230.1202199355
 20
168.4577897842
 10
-229.9334711329
 20
168.0069402511
 10
-229.622692515
 20
167.2566369827
 10
-229.1885918871
 20
166.2086383159
 10
-228.6321490005
 20
164.8652688319
 10
-227.9546267286
 20
163.2295683677
 10
-227.1575598911
 20
161.3052920158
 10
-226.2427515284
 20
159.0967462117
 10
-225.2122729019
 20
156.6089526469
 10
-224.0684634939
 20
153.8475439603
 10
-222.8139123813
 20
150.8187935407
 10
-221.4514582351
 20
147.5295410211
 10
-219.9841930464
 20
143.9872518832
 10
-218.4154360488
 20
140.1999280507
 10
-216.7487411693
 20
136.1761823947
 10
-214.9878858522
 20
131.9251046235
 10
-213.1368598834
 20
127.4563208873
 10
-211.1998542145
 20
122.7799788768
 10
-209.1812572375
 20
117.9066584165
 10
-207.0856436089
 20
112.8474012668
 10
-204.9177593485
 20
107.6136664207
 10
-202.6825143889
 20
102.2173003013
 10
-200.3849732623
 20
96.6705516631
 10
-198.0303401992
 20
90.9859523828
 10
-195.6239498154
 20
85.176421767
 10
-193.1712522105
 20
79.2550877387
 10
-190.6778055177
 20
73.2353762443
 10
-188.1492563457
 20
67.130906945
 10
-185.5913332597
 20
60.9555379207
 10
-183.0098309487
 20
54.7232464606
 10
-180.4105967217
 20
48.4481290633
 10
-177.7995197967
 20
42.1444312389
 10
-175.1825145379
 20
35.8264282996
  0
LWPOLYLINE
  5
C5
330
1F
100
AcDbEntity
  8
0
  6
Continuous
 62
     7
370
    25
100
AcDbPolyline
 90
       22
 70
   128
 43
0.0
 10
-175.1825145379
 20
35.8264282996
 10
-179.2926696994
 20
34.1239482815
 10
-183.3798388884
 20
32.4309826548
 10
-187.421166052
 20
30.7570160086
 10
-191.3940484569
 20
29.111391371
 10
-195.2762703345
 20
27.5033251102
 10
-199.0461206928
 20
25.9418026263
 10
-202.6825143889
 20
24.435556
 10
-206.1651169256
 20
22.9930118377
 10
-209.4744524852
 20
21.6222391183
 10
-212.5920138255
 20
20.3309044893
 10
-215.500366588
 20
19.1262275631
 10
-218.1832461551
 20
18.0149436648
 10
-220.6256470576
 20
17.0032665784
 10
-222.8139123813
 20
16.0968587453
 10
-224.7358008221
 20
15.3007865603
 10
-226.3805723682
 20
14.6194980199
 10
-227.739018102
 20
14.0568078215
 10
-228.8035496071
 20
13.6158675606
 10
-229.5682101444
 20
13.2991359288
 10
-230.0287230805
 20
13.1083861644
 10
-230.1825142399
 20
13.0446837003
  0
LWPOLYLINE
  5
C6
330
1F
100
AcDbEntity
  8
0
  6
Continuous
 62
     7
370
    25
100
AcDbPolyline
 90
       42
 70
   128
 43
0.0
 10
-391.5571949378
 20
174.4193569476
 10
-391.5279439584
 20
174.4485930259
 10
-391.2942192451
 20
174.6823326404
 10
-390.8281854287
 20
175.1483515556
 10
-390.1326439277
 20
175.8439079578
 10
-389.2117819682
 20
176.7647699172
 10
-388.0711278811
 20
177.9054240043
 10
-386.7175362006
 20
179.2590156848
 10
-385.159172763
 20
180.8173791225
 10
-383.4053805963
 20
182.571156388
 10
-381.4667246238
 20
184.5098272617
 10
-379.3548575536
 20
186.6216794307
 10
-377.082475175
 20
188.8940767104
 10
-374.663256754
 20
191.3132802303
 10
-372.111745824
 20
193.8648060615
 10
-369.4432905808
 20
196.5332464034
 10
-366.6739395753
 20
199.302597409
 10
-363.8203374043
 20
202.1561995799
 10
-360.8996651069
 20
205.0768867786
 10
-357.9294762507
 20
208.0470756347
 10
-354.9276224271
 20
211.0489145572
 10
-351.9121638433
 20
214.064373141
 10
-348.9012501136
 20
217.0753017719
 10
-345.9129861489
 20
220.0635508353
 10
-342.9653278485
 20
223.0112091357
 10
-340.0760224954
 20
225.9005144889
 10
-337.2624299422
 20
228.7141219432
 10
-334.5414779082
 20
231.4350739772
 10
-331.9295278684
 20
234.0470091159
 10
-329.4423005477
 20
236.5342513377
 10
-327.0947418109
 20
238.8818100745
 10
-324.9009630576
 20
241.0755888278
 10
-322.8741816178
 20
243.1023553664
 10
-321.0265717402
 20
244.9499801452
 10
-319.3692347899
 20
246.6073170955
 10
-317.9121694461
 20
248.0643824393
 10
-316.6641077891
 20
249.3124440963
 10
-315.6325600043
 20
250.3439918811
 10
-314.8237547771
 20
251.1527971084
 10
-314.2425349847
 20
251.7340318019
 10
-313.892387499
 20
252.0841494853
 10
-313.7754431859
 20
252.2010937984
  0
LINE
  5
C7
330
1F
100
AcDbEntity
  8
0
  6
Continuous
 62
     7
370
    25
100
AcDbLine
 10
343.6411348854
 20
-271.3470436544
 30
0.0
 11
461.7725293329
 21
-475.9566323734
 31
0.0
  0
LINE
  5
C8
330
1F
100
AcDbEntity
  8
0
  6
Continuous
 62
     7
370
    25
100
AcDbLine
 10
526.0710607298
 20
-367.3249573279
 30
0.0
 11
438.9039285538
 21
-216.3470439247
 31
0.0
  0
LINE
  5
C9
330
1F
100
AcDbEntity
  8
0
  6
Continuous
 62
     7
370
    25
100
AcDbLine
 10
571.7725270289
 20
-563.2870270254
 30
0.0
 11
571.7725270289
 21
-256.267692269
 31
0.0
  0
LINE
  5
CA
330
1F
100
AcDbEntity
  8
0
  6
Continuous
 62
     7
370
    25
100
AcDbLine
 10
461.7725293329
 20
-474.3731825874
 30
0.0
 11
461.7725293329
 21
-563.2870270254
 31
0.0
  0
ELLIPSE
  5
CB
330
1F
100
AcDbEntity
  8
0
  6
Continuous
 62
     7
370
    25
100
AcDbEllipse
 10
516.7725281809
 20
-461.2194255397
 30
0.0
 11
54.80171181716945
 21
14.68407446257612
 31
0.0
210
0.0
220
0.0
230
1.0
 40
0.3177652438
 41
0.7004580896382427
 42
3.056652579830579
  0
ELLIPSE
  5
CC
330
1F
100
AcDbEntity
  8
0
  6
Continuous
 62
     7
370
    25
100
AcDbEllipse
 10
516.7725281809
 20
-461.2194255397
 30
0.0
 11
-35.45123922521714
 21
132.3058256435084
 31
0.0
210
0.0
220
0.0
230
1.0
 40
0.3178248929
 41
4.797329054143882
 42
5.412847070022955
  0
LWPOLYLINE
  5
CD
330
1F
100
AcDbEntity
  8
0
  6
Continuous
 62
     7
370
    25
100
AcDbPolyline
 90
       82
 70
   128
 43
0.0
 10
418.7725285094
 20
-227.9664849071
 10
415.6760884528
 20
-229.7540372215
 10
412.4328739719
 20
-231.6263272188
 10
409.0624076187
 20
-233.5721453238
 10
405.5849534661
 20
-235.5797442039
 10
402.0214110827
 20
-237.6370703198
 10
398.3932299217
 20
-239.7317403391
 10
394.7222315139
 20
-241.8511559637
 10
391.0304718319
 20
-243.9825833928
 10
387.34017807
 20
-246.1132019809
 10
383.6735339584
 20
-248.2301673577
 10
380.052582299
 20
-250.3207893713
 10
376.4991156466
 20
-252.3724735263
 10
373.0345024534
 20
-254.3728943725
 10
369.6795658968
 20
-256.30999246
 10
366.4544943171
 20
-258.1721477241
 10
363.3786831672
 20
-259.9481612369
 10
360.4706322794
 20
-261.6273266915
 10
357.7478194251
 20
-263.1995642491
 10
355.226637094
 20
-264.6553962041
 10
352.9222344441
 20
-265.9861112535
 10
350.8484672517
 20
-267.1836717229
 10
349.0178188867
 20
-268.240868708
 10
347.4413054814
 20
-269.151364669
 10
346.128396906
 20
-269.9096903975
 10
345.0869825236
 20
-270.5112647969
 10
344.3233369463
 20
-270.9524754981
 10
343.8420489123
 20
-271.2306591029
 10
343.646010749
 20
-271.3441802787
 10
343.7364052023
 20
-271.2923055346
 10
344.1126843633
 20
-271.0753979113
 10
344.7725907413
 20
-270.6947101456
 10
345.7121572643
 20
-270.1525793644
 10
346.9257257178
 20
-269.4522217694
 10
348.4060086482
 20
-268.5978794181
 10
350.1440854118
 20
-267.5946886816
 10
352.1295193951
 20
-266.4486734047
 10
354.350367235
 20
-265.1667274348
 10
356.7932637706
 20
-263.7565777487
 10
359.4435214838
 20
-262.2266662123
 10
362.2851999755
 20
-260.5862433201
 10
365.3012159425
 20
-258.8451343628
 10
368.4734310937
 20
-257.0138103533
 10
371.7827601504
 20
-255.1033256782
 10
375.20930091
 20
-253.125121337
 10
378.732444222
 20
-251.0911317966
 10
382.3310066852
 20
-249.0135745406
 10
385.9833511613
 20
-246.9049413325
 10
389.6674928004
 20
-244.7779248397
 10
393.3612979217
 20
-242.6453159715
 10
397.0425380137
 20
-240.5199118739
 10
400.6890754443
 20
-238.4145425461
 10
404.278988584
 20
-236.3418160904
 10
407.7906745386
 20
-234.3142540771
 10
411.2030177371
 20
-232.3439995261
 10
414.4954952985
 20
-230.4429507508
 10
417.6483034722
 20
-228.6225058405
 10
420.6424919816
 20
-226.8936189332
 10
423.4600377805
 20
-225.2666846244
 10
426.0840057384
 20
-223.7515060212
 10
428.498619763
 20
-222.3571928366
 10
430.6893549967
 20
-221.0921081542
 10
432.6430273784
 20
-219.9638653789
 10
434.3478884741
 20
-218.9792856422
 10
435.7936939654
 20
-218.1442487435
 10
436.971737894
 20
-217.4637950483
 10
437.8749474917
 20
-216.9419977147
 10
438.4978831811
 20
-216.5820235253
 10
438.836801795
 20
-216.3860355356
 10
438.8896592114
 20
-216.355179376
 10
438.6561419631
 20
-216.4896744928
 10
438.1376619694
 20
-216.7886955076
 10
437.3373196579
 20
-217.2504665028
 10
436.2599408429
 20
-217.8721667086
 10
434.9120095534
 20
-218.6500909501
 10
433.3016127161
 20
-219.5795599031
 10
431.4384572771
 20
-220.654971026
 10
429.3337437612
 20
-221.8698593897
 10
427.0001129304
 20
-223.2169284644
 10
424.4516154902
 20
-224.6880554255
 10
421.7035843325
 20
-226.2744379156
 10
418.7725285094
 20
-227.9664849071
  0
LWPOLYLINE
  5
CE
330
1F
100
AcDbEntity
  8
0
  6
Continuous
 62
     7
370
    25
100
AcDbPolyline
 90
       77
 70
   128
 43
0.0
 10
415.4725251014
 20
-229.8721434562
 10
412.5636823139
 20
-231.5513981644
 10
409.5093933864
 20
-233.3146480604
 10
406.3305279236
 20
-235.1498572269
 10
403.0488011013
 20
-237.0444648989
 10
399.6866284576
 20
-238.9855301302
 10
396.2669859517
 20
-240.9598125831
 10
392.8132163524
 20
-242.9538113063
 10
389.3489363827
 20
-244.9539400083
 10
385.8977838392
 20
-246.9464905577
 10
382.4833543717
 20
-248.9178641496
 10
379.1289525532
 20
-250.8545933636
 10
375.8575168059
 20
-252.7434585036
 10
372.6913717888
 20
-254.5715575688
 10
369.6521572743
 20
-256.3264081472
 10
366.7606332196
 20
-257.9959869646
 10
364.0365533256
 20
-259.5689367331
 10
361.4985175235
 20
-261.0344688156
 10
359.1638692414
 20
-262.3826172223
 10
357.0485636956
 20
-263.604132156
 10
355.1670309135
 20
-264.6906807804
 10
353.5321414889
 20
-265.6348669973
 10
352.1550511657
 20
-266.4301995204
 10
351.0451797646
 20
-267.0712865612
 10
350.2101005475
 20
-267.5537050433
 10
349.6555165097
 20
-267.8742089783
 10
349.3852287702
 20
-268.0305530519
 10
349.4010628144
 20
-268.0217299044
 10
349.7029264459
 20
-267.8477541673
 10
350.2887439326
 20
-267.5098221818
 10
351.1545350314
 20
-267.0102663781
 10
352.2943636222
 20
-266.3524632829
 10
353.7004496601
 20
-265.5409270642
 10
355.3632007857
 20
-264.5812304605
 10
357.2712439356
 20
-263.4798648741
 10
359.4115498065
 20
-262.2443996978
 10
361.7695000274
 20
-260.8832488712
 10
364.3289954902
 20
-259.4057421858
 10
367.0725278011
 20
-257.821962375
 10
369.9813811253
 20
-256.1426894147
 10
373.0356595161
 20
-254.379433436
 10
376.214524979
 20
-252.5442486043
 10
379.4962518012
 20
-250.6496409323
 10
382.858424445
 20
-248.708575701
 10
386.2780669508
 20
-246.7342689133
 10
389.7318365501
 20
-244.7402701901
 10
393.1961270565
 20
-242.7401719055
 10
396.6472690633
 20
-240.7476152735
 10
400.0617090675
 20
-238.7762477643
 10
403.4161003494
 20
-236.8395124676
 10
406.6875466333
 20
-234.9506290755
 10
409.8536811137
 20
-233.1225482623
 10
412.8928956282
 20
-231.367697684
 10
415.7844196829
 20
-229.6981188666
 10
418.5084995769
 20
-228.1251690981
 10
421.0465353791
 20
-226.6596370156
 10
423.3811836612
 20
-225.3114886088
 10
425.4964997436
 20
-224.0899797579
 10
427.378021989
 20
-223.0034250508
 10
429.0129114136
 20
-222.0592388339
 10
430.3900017368
 20
-221.2639063108
 10
431.4998731379
 20
-220.62281927
 10
432.334952355
 20
-220.1404007879
 10
432.8895363928
 20
-219.8198968528
 10
433.159834669
 20
-219.6635345272
 10
433.1439900882
 20
-219.6723759268
 10
432.8421369933
 20
-219.8463577466
 10
432.2563089699
 20
-220.1842836494
 10
431.3905284078
 20
-220.6838455357
 10
430.2506892803
 20
-221.3416182135
 10
428.8446032425
 20
-222.1531544321
 10
427.1818521168
 20
-223.1128753706
 10
425.273808967
 20
-224.2142409571
 10
423.1335030961
 20
-225.4497061334
 10
420.7755528751
 20
-226.8108326252
 10
418.2160679491
 20
-228.2883453933
 10
415.4725251014
 20
-229.8721434562
  0
LWPOLYLINE
  5
CF
330
1F
100
AcDbEntity
  8
0
  6
Continuous
 62
     7
370
    25
100
AcDbPolyline
 90
       82
 70
   128
 43
0.0
 10
477.8816554264
 20
-585.7382499789
 10
474.9848544545
 20
-583.9309382784
 10
472.3393692134
 20
-581.9994719133
 10
469.9611107969
 20
-579.9554662071
 10
467.8643821332
 20
-577.8112139454
 10
466.0617930325
 20
-575.5796120036
 10
464.5641824789
 20
-573.2740830315
 10
463.3805619955
 20
-570.9084880147
 10
462.5180438628
 20
-568.4970574636
 10
461.9818200459
 20
-566.0542940901
 10
461.7751134616
 20
-563.5948868892
 10
461.8991674418
 20
-561.1336290224
 10
462.3532365143
 20
-558.6853212547
 10
463.1345929875
 20
-556.2646890773
 10
464.2385295855
 20
-553.8862899466
 10
465.6584134479
 20
-551.5644273656
 10
467.3857045695
 20
-549.3130672466
 10
469.4100137523
 20
-547.1457466706
 10
471.7191645081
 20
-545.075501655
 10
474.299273731
 20
-543.1147840864
 10
477.1348220788
 20
-541.2753845941
 10
480.2087551421
 20
-539.5683650219
 10
483.5025870002
 20
-538.003992564
 10
486.9965106924
 20
-536.5916759918
 10
490.6695084413
 20
-535.3399081051
 10
494.4994939814
 20
-534.2562170233
 10
498.4634301085
 20
-533.3471196147
 10
502.5374801458
 20
-532.6180857603
 10
506.697140969
 20
-532.0734980557
 10
510.9173984237
 20
-531.7166320427
 10
515.1728682533
 20
-531.5496356799
 10
519.437958101
 20
-531.5735088134
 10
523.6870189754
 20
-531.7881130615
 10
527.8944940813
 20
-532.1921558473
 10
532.0350808214
 20
-532.7832048454
 10
536.0838769938
 20
-533.5577085109
 10
540.0165322568
 20
-534.5110074846
 10
543.8093969601
 20
-535.6373688082
 10
547.4396545119
 20
-536.9300197591
 10
550.8854814059
 20
-538.3811824466
 10
554.1261456732
 20
-539.9821336879
 10
557.1421616403
 20
-541.7232426452
 10
559.9153910158
 20
-543.5940383057
 10
562.4291508918
 20
-545.5832718296
 10
564.6683306351
 20
-547.678974906
 10
566.6194570837
 20
-549.8685490927
 10
568.2707982672
 20
-552.1388226519
 10
569.6124233345
 20
-554.476142931
 10
570.6362611639
 20
-556.8664527769
 10
571.3361596329
 20
-559.2953764544
 10
571.7079053734
 20
-561.7483070851
 10
571.7492593344
 20
-564.2104910451
 10
571.4599818054
 20
-566.6671214869
 10
570.8418047587
 20
-569.1034242573
 10
569.8984489706
 20
-571.5047453371
 10
568.6355884607
 20
-573.856644362
 10
567.06081493
 20
-576.1449759797
 10
565.183603517
 20
-578.3559795694
 10
563.0152429915
 20
-580.4763560364
 10
560.568773852
 20
-582.4933552508
 10
557.8589076534
 20
-584.3948439082
 10
554.9019426314
 20
-586.1693876934
 10
551.7156640154
 20
-587.8063149116
 10
548.3192335571
 20
-589.2957802619
 10
544.7330754382
 20
-590.6288246186
 10
540.9787592963
 20
-591.7974334352
 10
537.0788666226
 20
-592.7945773749
 10
533.0568468698
 20
-593.6142588813
 10
528.9368923291
 20
-594.2515479142
 10
524.743780079
 20
-594.702615405
 10
520.5027271059
 20
-594.9647439009
 10
516.2392414725
 20
-595.0363587394
 10
511.9789616339
 20
-594.9170295682
 10
507.7475128738
 20
-594.6074741478
 10
503.570340035
 20
-594.1095530284
 10
499.4725652733
 20
-593.4262634675
 10
495.4788392268
 20
-592.5617112974
 10
491.6131724282
 20
-591.5210987597
 10
487.8988161085
 20
-590.3106830665
 10
484.3581107316
 20
-588.9377437065
 10
481.0123503341
 20
-587.4105375843
 10
477.8816554264
 20
-585.7382499789
  0
LWPOLYLINE
  5
D0
330
1F
100
AcDbEntity
  8
0
  6
Continuous
 62
     7
370
    25
100
AcDbPolyline
 90
       42
 70
   128
 43
0.0
 10
461.7750950224
 20
-255.9610839237
 10
461.8991674418
 20
-254.114294266
 10
462.3532365143
 20
-251.6659864983
 10
463.1345929875
 20
-249.2453543209
 10
464.2385295855
 20
-246.8669551902
 10
465.6584134479
 20
-244.5450926092
 10
467.3857045695
 20
-242.2937324902
 10
469.4100137523
 20
-240.1264119142
 10
471.7191645081
 20
-238.0561668986
 10
474.299273731
 20
-236.09544933
 10
477.1348220788
 20
-234.2560498377
 10
480.2087551421
 20
-232.5490302655
 10
483.5025870002
 20
-230.9846578076
 10
486.9965106924
 20
-229.5723412354
 10
490.6695084413
 20
-228.3205733487
 10
494.4994939814
 20
-227.2368822669
 10
498.4634301085
 20
-226.3277848583
 10
502.5374801458
 20
-225.5987510039
 10
506.697140969
 20
-225.0541632993
 10
510.9173984237
 20
-224.6972972863
 10
515.1728682533
 20
-224.5303009235
 10
519.437958101
 20
-224.554174057
 10
523.6870189754
 20
-224.7687783051
 10
527.8944940813
 20
-225.1728210909
 10
532.0350808214
 20
-225.763870089
 10
536.0838769938
 20
-226.5383737545
 10
540.0165322568
 20
-227.4916727282
 10
543.8093969601
 20
-228.6180340518
 10
547.4396545119
 20
-229.9106850027
 10
550.8854814059
 20
-231.3618476902
 10
554.1261456732
 20
-232.9627989315
 10
557.1421616403
 20
-234.7039078888
 10
559.9153910158
 20
-236.5747035493
 10
562.4291508918
 20
-238.5639370732
 10
564.6683306351
 20
-240.6596401495
 10
566.6194570837
 20
-242.8492143363
 10
568.2707982672
 20
-245.1194878955
 10
569.6124233345
 20
-247.4568081746
 10
570.6362611639
 20
-249.8471180205
 10
571.3361596329
 20
-252.276041698
 10
571.7079053734
 20
-254.7289723287
 10
571.7725270289
 20
-256.267692269
  0
LWPOLYLINE
  5
D1
330
1F
100
AcDbEntity
  8
0
  6
Continuous
 62
     7
370
    25
100
AcDbPolyline
 90
       77
 70
   128
 43
0.0
 10
482.5485601569
 20
-583.0441032245
 10
479.8392589895
 20
-581.3450967256
 10
477.3822514915
 20
-579.5227342986
 10
475.1943163891
 20
-577.5894666898
 10
473.2904042889
 20
-575.5584989018
 10
471.683518811
 20
-573.4437033253
 10
470.3846372336
 20
-571.2595283079
 10
469.4026327854
 20
-569.0208924672
 10
468.7442134009
 20
-566.7430885075
 10
468.4138743048
 20
-564.4416767728
 10
468.4138743048
 20
-562.1323772781
 10
468.7442134009
 20
-559.8309655433
 10
469.4026327854
 20
-557.5531615836
 10
470.3846372336
 20
-555.3145257429
 10
471.683518811
 20
-553.1303507255
 10
473.2904042889
 20
-551.015555149
 10
475.1943163891
 20
-548.984587361
 10
477.3822514915
 20
-547.0513197522
 10
479.8392589895
 20
-545.2289573252
 10
482.5485601569
 20
-543.5299508264
 10
485.4916446247
 20
-541.9659045541
 10
488.6484109802
 20
-540.547504317
 10
491.9972915616
 20
-539.2844362675
 10
495.5154121546
 20
-538.1853312072
 10
499.1787424702
 20
-537.257695966
 10
502.9622545243
 20
-536.5078675919
 10
506.8401057134
 20
-535.9409684908
 10
510.785805426
 20
-535.5608710707
 10
514.7723994355
 20
-535.3701703697
 10
518.7726569264
 20
-535.3701703697
 10
522.7592509359
 20
-535.5608710707
 10
526.7049506485
 20
-535.9409684908
 10
530.5828018376
 20
-536.5078675919
 10
534.3663138917
 20
-537.257695966
 10
538.0296442073
 20
-538.1853312072
 10
541.5477648003
 20
-539.2844362675
 10
544.8966453817
 20
-540.547504317
 10
548.0534117372
 20
-541.9659045541
 10
550.9964962049
 20
-543.5299508264
 10
553.7057973723
 20
-545.2289573252
 10
556.1628048704
 20
-547.0513197522
 10
558.3507399728
 20
-548.984587361
 10
560.2546520729
 20
-551.015555149
 10
561.8615375509
 20
-553.1303507255
 10
563.1604191283
 20
-555.3145257429
 10
564.1424235764
 20
-557.5531615836
 10
564.800842961
 20
-559.8309655433
 10
565.1311820571
 20
-562.1323772781
 10
565.1311820571
 20
-564.4416767728
 10
564.800842961
 20
-566.7430885075
 10
564.1424235764
 20
-569.0208924672
 10
563.1604191283
 20
-571.2595283079
 10
561.8615375509
 20
-573.4437033253
 10
560.2546520729
 20
-575.5584989018
 10
558.3507399728
 20
-577.5894666898
 10
556.1628048704
 20
-579.5227342986
 10
553.7057973723
 20
-581.3450967256
 10
550.9964962049
 20
-583.0441032245
 10
548.0534117372
 20
-584.6081494967
 10
544.8966453817
 20
-586.0265497339
 10
541.5477648003
 20
-587.2896177833
 10
538.0296442073
 20
-588.3887228436
 10
534.3663138917
 20
-589.3163580848
 10
530.5828018376
 20
-590.0661864589
 10
526.7049506485
 20
-590.63308556
 10
522.7592509359
 20
-591.0131829801
 10
518.7726569264
 20
-591.2038836811
 10
514.7723994355
 20
-591.2038836811
 10
510.785805426
 20
-591.0131829801
 10
506.8401057134
 20
-590.63308556
 10
502.9622545243
 20
-590.0661864589
 10
499.1787424702
 20
-589.3163580848
 10
495.5154121546
 20
-588.3887228436
 10
491.9972915616
 20
-587.2896177833
 10
488.6484109802
 20
-586.0265497339
 10
485.4916446247
 20
-584.6081494967
 10
482.5485601569
 20
-583.0441032245
  0
ENDSEC
  0
SECTION
  2
OBJECTS
  0
DICTIONARY
  5
C
330
0
100
AcDbDictionary
281
     1
  3
ACAD_GROUP
350
D
  3
ACAD_LAYOUT
350
1A
  3
ACAD_MLINESTYLE
350
17
  3
ACAD_PLOTSETTINGS
350
19
  3
ACAD_PLOTSTYLENAME
350
E
  3
ACAD_SCALELIST
350
47
  0
DICTIONARY
  5
D
102
{ACAD_REACTORS
330
C
102
}
330
C
100
AcDbDictionary
281
     1
  0
DICTIONARY
  5
1A
102
{ACAD_REACTORS
330
C
102
}
330
C
100
AcDbDictionary
281
     1
  3
Layout1
350
1E
  3
Layout2
350
26
  3
Model
350
22
  0
DICTIONARY
  5
17
102
{ACAD_REACTORS
330
C
102
}
330
C
100
AcDbDictionary
281
     1
  3
Standard
350
18
  0
DICTIONARY
  5
19
102
{ACAD_REACTORS
330
C
102
}
330
C
100
AcDbDictionary
281
     1
  0
ACDBDICTIONARYWDFLT
  5
E
102
{ACAD_REACTORS
330
C
102
}
330
C
100
AcDbDictionary
281
     1
  3
Normal
350
F
100
AcDbDictionaryWithDefault
340
F
  0
DICTIONARY
  5
47
102
{ACAD_REACTORS
330
C
102
}
330
C
100
AcDbDictionary
281
     1
  3
A0
350
48
  3
A1
350
49
  3
A2
350
4A
  3
A3
350
4B
  3
A4
350
4C
  3
A5
350
4D
  3
A6
350
4E
  3
A7
350
4F
  3
A8
350
50
  3
A9
350
51
  3
B0
350
52
  3
B1
350
53
  3
B2
350
54
  3
B3
350
55
  3
B4
350
56
  3
B5
350
57
  3
B6
350
58
  3
B7
350
59
  3
B8
350
5A
  3
B9
350
5B
  3
C0
350
5C
  3
C1
350
5D
  3
C2
350
5E
  3
C3
350
5F
  3
C4
350
60
  3
C5
350
61
  3
C6
350
62
  3
C7
350
63
  3
C8
350
64
  3
C9
350
65
  3
D0
350
66
  3
D1
350
67
  3
D2
350
68
  0
LAYOUT
  5
1E
102
{ACAD_REACTORS
330
1A
102
}
330
1A
100
AcDbPlotSettings
  1

  2
none_device
  4

  6

 40
0.0
 41
0.0
 42
0.0
 43
0.0
 44
0.0
 45
0.0
 46
0.0
 47
0.0
 48
0.0
 49
0.0
140
0.0
141
0.0
142
1.0
143
1.0
 70
   688
 72
     1
 73
     0
 74
     5
  7

 75
    16
147
1.0
148
0.0
149
0.0
100
AcDbLayout
  1
Layout1
 70
     1
 71
     1
 10
0.0
 20
0.0
 11
420.0
 21
297.0
 12
0.0
 22
0.0
 32
0.0
 14
1.0000000000E+20
 24
1.0000000000E+20
 34
1.0000000000E+20
 15
-1.0000000000E+20
 25
-1.0000000000E+20
 35
-1.0000000000E+20
146
0.0
 13
0.0
 23
0.0
 33
0.0
 16
1.0
 26
0.0
 36
0.0
 17
0.0
 27
1.0
 37
0.0
 76
     0
330
1B
  0
LAYOUT
  5
26
102
{ACAD_REACTORS
330
1A
102
}
330
1A
100
AcDbPlotSettings
  1

  2
none_device
  4

  6

 40
0.0
 41
0.0
 42
0.0
 43
0.0
 44
0.0
 45
0.0
 46
0.0
 47
0.0
 48
0.0
 49
0.0
140
0.0
141
0.0
142
1.0
143
1.0
 70
   688
 72
     1
 73
     0
 74
     5
  7

 75
    16
147
1.0
148
0.0
149
0.0
100
AcDbLayout
  1
Layout2
 70
     1
 71
     2
 10
0.0
 20
0.0
 11
0.0
 21
0.0
 12
0.0
 22
0.0
 32
0.0
 14
0.0
 24
0.0
 34
0.0
 15
0.0
 25
0.0
 35
0.0
146
0.0
 13
0.0
 23
0.0
 33
0.0
 16
1.0
 26
0.0
 36
0.0
 17
0.0
 27
1.0
 37
0.0
 76
     0
330
23
  0
LAYOUT
  5
22
102
{ACAD_REACTORS
330
1A
102
}
330
1A
100
AcDbPlotSettings
  1

  2
none_device
  4
Letter_(8.50_x_11.00_Inches)
  6

 40
6.35
 41
6.35
 42
6.35000508
 43
6.35000508
 44
215.9
 45
279.4
 46
0.0
 47
0.0
 48
0.0
 49
0.0
140
0.0
141
0.0
142
1.0
143
1.0
 70
  1712
 72
     1
 73
     0
 74
     0
  7

 75
     0
147
1.0
148
0.0
149
0.0
100
AcDbLayout
  1
Model
 70
     1
 71
     0
 10
0.0
 20
0.0
 11
279.4
 21
215.9
 12
0.0
 22
0.0
 32
0.0
 14
0.0
 24
0.0
 34
0.0
 15
279.4
 25
215.9
 35
0.0
146
0.0
 13
0.0
 23
0.0
 33
0.0
 16
1.0
 26
0.0
 36
0.0
 17
0.0
 27
1.0
 37
0.0
 76
     0
330
1F
331
29
  0
MLINESTYLE
  5
18
102
{ACAD_REACTORS
330
17
102
}
330
17
100
AcDbMlineStyle
  2
Standard
 70
     0
  3

 62
   256
 51
90.0
 52
90.0
 71
     2
 49
0.5
 62
   256
  6
BYLAYER
 49
-0.5
 62
   256
  6
BYLAYER
  0
ACDBPLACEHOLDER
  5
F
102
{ACAD_REACTORS
330
E
102
}
330
E
  0
SCALE
  5
48
102
{ACAD_REACTORS
330
47
102
}
330
47
100
AcDbScale
 70
     0
300
1:1
140
1.0
141
1.0
290
     1
  0
SCALE
  5
49
102
{ACAD_REACTORS
330
47
102
}
330
47
100
AcDbScale
 70
     0
300
1:2
140
1.0
141
2.0
290
     0
  0
SCALE
  5
4A
102
{ACAD_REACTORS
330
47
102
}
330
47
100
AcDbScale
 70
     0
300
1:4
140
1.0
141
4.0
290
     0
  0
SCALE
  5
4B
102
{ACAD_REACTORS
330
47
102
}
330
47
100
AcDbScale
 70
     0
300
1:5
140
1.0
141
5.0
290
     0
  0
SCALE
  5
4C
102
{ACAD_REACTORS
330
47
102
}
330
47
100
AcDbScale
 70
     0
300
1:8
140
1.0
141
8.0
290
     0
  0
SCALE
  5
4D
102
{ACAD_REACTORS
330
47
102
}
330
47
100
AcDbScale
 70
     0
300
1:10
140
1.0
141
10.0
290
     0
  0
SCALE
  5
4E
102
{ACAD_REACTORS
330
47
102
}
330
47
100
AcDbScale
 70
     0
300
1:16
140
1.0
141
16.0
290
     0
  0
SCALE
  5
4F
102
{ACAD_REACTORS
330
47
102
}
330
47
100
AcDbScale
 70
     0
300
1:20
140
1.0
141
20.0
290
     0
  0
SCALE
  5
50
102
{ACAD_REACTORS
330
47
102
}
330
47
100
AcDbScale
 70
     0
300
1:30
140
1.0
141
30.0
290
     0
  0
SCALE
  5
51
102
{ACAD_REACTORS
330
47
102
}
330
47
100
AcDbScale
 70
     0
300
1:40
140
1.0
141
40.0
290
     0
  0
SCALE
  5
52
102
{ACAD_REACTORS
330
47
102
}
330
47
100
AcDbScale
 70
     0
300
1:50
140
1.0
141
50.0
290
     0
  0
SCALE
  5
53
102
{ACAD_REACTORS
330
47
102
}
330
47
100
AcDbScale
 70
     0
300
1:100
140
1.0
141
100.0
290
     0
  0
SCALE
  5
54
102
{ACAD_REACTORS
330
47
102
}
330
47
100
AcDbScale
 70
     0
300
2:1
140
2.0
141
1.0
290
     0
  0
SCALE
  5
55
102
{ACAD_REACTORS
330
47
102
}
330
47
100
AcDbScale
 70
     0
300
4:1
140
4.0
141
1.0
290
     0
  0
SCALE
  5
56
102
{ACAD_REACTORS
330
47
102
}
330
47
100
AcDbScale
 70
     0
300
8:1
140
8.0
141
1.0
290
     0
  0
SCALE
  5
57
102
{ACAD_REACTORS
330
47
102
}
330
47
100
AcDbScale
 70
     0
300
10:1
140
10.0
141
1.0
290
     0
  0
SCALE
  5
58
102
{ACAD_REACTORS
330
47
102
}
330
47
100
AcDbScale
 70
     0
300
100:1
140
100.0
141
1.0
290
     0
  0
SCALE
  5
59
102
{ACAD_REACTORS
330
47
102
}
330
47
100
AcDbScale
 70
     0
300
1/128" = 1'-0"
140
0.0078125
141
12.0
290
     0
  0
SCALE
  5
5A
102
{ACAD_REACTORS
330
47
102
}
330
47
100
AcDbScale
 70
     0
300
1/64" = 1'-0"
140
0.015625
141
12.0
290
     0
  0
SCALE
  5
5B
102
{ACAD_REACTORS
330
47
102
}
330
47
100
AcDbScale
 70
     0
300
1/32" = 1'-0"
140
0.03125
141
12.0
290
     0
  0
SCALE
  5
5C
102
{ACAD_REACTORS
330
47
102
}
330
47
100
AcDbScale
 70
     0
300
1/16" = 1'-0"
140
0.0625
141
12.0
290
     0
  0
SCALE
  5
5D
102
{ACAD_REACTORS
330
47
102
}
330
47
100
AcDbScale
 70
     0
300
3/32" = 1'-0"
140
0.09375
141
12.0
290
     0
  0
SCALE
  5
5E
102
{ACAD_REACTORS
330
47
102
}
330
47
100
AcDbScale
 70
     0
300
1/8" = 1'-0"
140
0.125
141
12.0
290
     0
  0
SCALE
  5
5F
102
{ACAD_REACTORS
330
47
102
}
330
47
100
AcDbScale
 70
     0
300
3/16" = 1'-0"
140
0.1875
141
12.0
290
     0
  0
SCALE
  5
60
102
{ACAD_REACTORS
330
47
102
}
330
47
100
AcDbScale
 70
     0
300
1/4" = 1'-0"
140
0.25
141
12.0
290
     0
  0
SCALE
  5
61
102
{ACAD_REACTORS
330
47
102
}
330
47
100
AcDbScale
 70
     0
300
3/8" = 1'-0"
140
0.375
141
12.0
290
     0
  0
SCALE
  5
62
102
{ACAD_REACTORS
330
47
102
}
330
47
100
AcDbScale
 70
     0
300
1/2" = 1'-0"
140
0.5
141
12.0
290
     0
  0
SCALE
  5
63
102
{ACAD_REACTORS
330
47
102
}
330
47
100
AcDbScale
 70
     0
300
3/4" = 1'-0"
140
0.75
141
12.0
290
     0
  0
SCALE
  5
64
102
{ACAD_REACTORS
330
47
102
}
330
47
100
AcDbScale
 70
     0
300
1" = 1'-0"
140
1.0
141
12.0
290
     0
  0
SCALE
  5
65
102
{ACAD_REACTORS
330
47
102
}
330
47
100
AcDbScale
 70
     0
300
1-1/2" = 1'-0"
140
1.5
141
12.0
290
     0
  0
SCALE
  5
66
102
{ACAD_REACTORS
330
47
102
}
330
47
100
AcDbScale
 70
     0
300
3" = 1'-0"
140
3.0
141
12.0
290
     0
  0
SCALE
  5
67
102
{ACAD_REACTORS
330
47
102
}
330
47
100
AcDbScale
 70
     0
300
6" = 1'-0"
140
6.0
141
12.0
290
     0
  0
SCALE
  5
68
102
{ACAD_REACTORS
330
47
102
}
330
47
100
AcDbScale
 70
     0
300
1'-0" = 1'-0"
140
12.0
141
12.0
290
     0
  0
ENDSEC
  0
EOF
